ISO-10303-21;
HEADER;
/* Generated by software containing ST-Developer
 * from STEP Tools, Inc. (www.steptools.com) 
 */

FILE_DESCRIPTION(
/* description */ (''),
/* implementation_level */ '2;1');

FILE_NAME(
/* name */ 'Capot.step',
/* time_stamp */ '2026-02-03T22:49:45+01:00',
/* author */ (''),
/* organization */ (''),
/* preprocessor_version */ 'ST-DEVELOPER v20.1',
/* originating_system */ 'Autodesk Translation Framework v14.21.0.0',
/* authorisation */ '');

FILE_SCHEMA (('AUTOMOTIVE_DESIGN { 1 0 10303 214 3 1 1 }'));
ENDSEC;

DATA;
#10=MECHANICAL_DESIGN_GEOMETRIC_PRESENTATION_REPRESENTATION('',(#13),#711);
#11=SHAPE_REPRESENTATION_RELATIONSHIP('SRR','None',#718,#12);
#12=ADVANCED_BREP_SHAPE_REPRESENTATION('',(#14),#710);
#13=STYLED_ITEM('',(#727),#14);
#14=MANIFOLD_SOLID_BREP('Body1',#421);
#15=FACE_BOUND('',#59,.T.);
#16=FACE_BOUND('',#77,.T.);
#17=PLANE('',#438);
#18=PLANE('',#439);
#19=PLANE('',#440);
#20=PLANE('',#441);
#21=PLANE('',#446);
#22=PLANE('',#447);
#23=PLANE('',#448);
#24=PLANE('',#449);
#25=PLANE('',#453);
#26=PLANE('',#454);
#27=PLANE('',#458);
#28=PLANE('',#459);
#29=PLANE('',#460);
#30=PLANE('',#465);
#31=PLANE('',#470);
#32=FACE_OUTER_BOUND('',#54,.T.);
#33=FACE_OUTER_BOUND('',#55,.T.);
#34=FACE_OUTER_BOUND('',#56,.T.);
#35=FACE_OUTER_BOUND('',#57,.T.);
#36=FACE_OUTER_BOUND('',#58,.T.);
#37=FACE_OUTER_BOUND('',#60,.T.);
#38=FACE_OUTER_BOUND('',#61,.T.);
#39=FACE_OUTER_BOUND('',#62,.T.);
#40=FACE_OUTER_BOUND('',#63,.T.);
#41=FACE_OUTER_BOUND('',#64,.T.);
#42=FACE_OUTER_BOUND('',#65,.T.);
#43=FACE_OUTER_BOUND('',#66,.T.);
#44=FACE_OUTER_BOUND('',#67,.T.);
#45=FACE_OUTER_BOUND('',#68,.T.);
#46=FACE_OUTER_BOUND('',#69,.T.);
#47=FACE_OUTER_BOUND('',#70,.T.);
#48=FACE_OUTER_BOUND('',#71,.T.);
#49=FACE_OUTER_BOUND('',#72,.T.);
#50=FACE_OUTER_BOUND('',#73,.T.);
#51=FACE_OUTER_BOUND('',#74,.T.);
#52=FACE_OUTER_BOUND('',#75,.T.);
#53=FACE_OUTER_BOUND('',#76,.T.);
#54=EDGE_LOOP('',(#276,#277,#278,#279));
#55=EDGE_LOOP('',(#280,#281,#282,#283));
#56=EDGE_LOOP('',(#284,#285,#286,#287));
#57=EDGE_LOOP('',(#288,#289,#290,#291));
#58=EDGE_LOOP('',(#292,#293,#294,#295,#296,#297,#298,#299,#300,#301,#302,
#303,#304,#305,#306,#307,#308,#309));
#59=EDGE_LOOP('',(#310));
#60=EDGE_LOOP('',(#311,#312,#313,#314));
#61=EDGE_LOOP('',(#315,#316,#317,#318));
#62=EDGE_LOOP('',(#319,#320,#321,#322));
#63=EDGE_LOOP('',(#323,#324));
#64=EDGE_LOOP('',(#325,#326,#327,#328));
#65=EDGE_LOOP('',(#329,#330));
#66=EDGE_LOOP('',(#331,#332,#333,#334));
#67=EDGE_LOOP('',(#335,#336,#337,#338));
#68=EDGE_LOOP('',(#339,#340,#341,#342));
#69=EDGE_LOOP('',(#343,#344,#345,#346));
#70=EDGE_LOOP('',(#347,#348,#349,#350,#351,#352,#353,#354));
#71=EDGE_LOOP('',(#355,#356,#357,#358));
#72=EDGE_LOOP('',(#359,#360,#361,#362));
#73=EDGE_LOOP('',(#363,#364,#365,#366,#367,#368,#369,#370));
#74=EDGE_LOOP('',(#371,#372,#373,#374));
#75=EDGE_LOOP('',(#375,#376,#377,#378));
#76=EDGE_LOOP('',(#379,#380,#381,#382,#383,#384,#385,#386,#387,#388,#389,
#390));
#77=EDGE_LOOP('',(#391));
#78=LINE('',#594,#122);
#79=LINE('',#599,#123);
#80=LINE('',#601,#124);
#81=LINE('',#603,#125);
#82=LINE('',#604,#126);
#83=LINE('',#608,#127);
#84=LINE('',#610,#128);
#85=LINE('',#612,#129);
#86=LINE('',#613,#130);
#87=LINE('',#615,#131);
#88=LINE('',#616,#132);
#89=LINE('',#621,#133);
#90=LINE('',#623,#134);
#91=LINE('',#625,#135);
#92=LINE('',#629,#136);
#93=LINE('',#631,#137);
#94=LINE('',#633,#138);
#95=LINE('',#637,#139);
#96=LINE('',#639,#140);
#97=LINE('',#641,#141);
#98=LINE('',#643,#142);
#99=LINE('',#645,#143);
#100=LINE('',#649,#144);
#101=LINE('',#651,#145);
#102=LINE('',#652,#146);
#103=LINE('',#655,#147);
#104=LINE('',#657,#148);
#105=LINE('',#658,#149);
#106=LINE('',#660,#150);
#107=LINE('',#664,#151);
#108=LINE('',#668,#152);
#109=LINE('',#670,#153);
#110=LINE('',#675,#154);
#111=LINE('',#676,#155);
#112=LINE('',#680,#156);
#113=LINE('',#683,#157);
#114=LINE('',#684,#158);
#115=LINE('',#686,#159);
#116=LINE('',#689,#160);
#117=LINE('',#691,#161);
#118=LINE('',#692,#162);
#119=LINE('',#698,#163);
#120=LINE('',#701,#164);
#121=LINE('',#702,#165);
#122=VECTOR('',#477,7.5);
#123=VECTOR('',#482,10.);
#124=VECTOR('',#483,10.);
#125=VECTOR('',#484,10.);
#126=VECTOR('',#485,10.);
#127=VECTOR('',#488,10.);
#128=VECTOR('',#489,10.);
#129=VECTOR('',#490,10.);
#130=VECTOR('',#491,10.);
#131=VECTOR('',#494,10.);
#132=VECTOR('',#495,10.);
#133=VECTOR('',#500,10.);
#134=VECTOR('',#501,10.);
#135=VECTOR('',#502,10.);
#136=VECTOR('',#505,10.);
#137=VECTOR('',#506,10.);
#138=VECTOR('',#507,10.);
#139=VECTOR('',#510,10.);
#140=VECTOR('',#511,10.);
#141=VECTOR('',#512,10.);
#142=VECTOR('',#513,10.);
#143=VECTOR('',#514,10.);
#144=VECTOR('',#519,10.);
#145=VECTOR('',#520,10.);
#146=VECTOR('',#521,10.);
#147=VECTOR('',#524,10.);
#148=VECTOR('',#525,10.);
#149=VECTOR('',#526,10.);
#150=VECTOR('',#529,10.);
#151=VECTOR('',#534,10.);
#152=VECTOR('',#539,10.);
#153=VECTOR('',#542,10.);
#154=VECTOR('',#547,10.);
#155=VECTOR('',#548,10.);
#156=VECTOR('',#553,10.);
#157=VECTOR('',#556,10.);
#158=VECTOR('',#557,10.);
#159=VECTOR('',#560,10.);
#160=VECTOR('',#563,10.);
#161=VECTOR('',#564,10.);
#162=VECTOR('',#565,10.);
#163=VECTOR('',#574,10.);
#164=VECTOR('',#577,10.);
#165=VECTOR('',#578,10.);
#166=CIRCLE('',#436,7.5);
#167=CIRCLE('',#437,7.5);
#168=CIRCLE('',#442,1.99999999999999);
#169=CIRCLE('',#443,2.);
#170=CIRCLE('',#444,1.99999999999999);
#171=CIRCLE('',#445,1.99999999999999);
#172=CIRCLE('',#450,0.5);
#173=CIRCLE('',#452,0.5);
#174=CIRCLE('',#455,0.5);
#175=CIRCLE('',#457,0.5);
#176=CIRCLE('',#462,1.99999999999999);
#177=CIRCLE('',#464,2.);
#178=CIRCLE('',#467,1.99999999999999);
#179=CIRCLE('',#469,1.99999999999999);
#180=VERTEX_POINT('',#591);
#181=VERTEX_POINT('',#593);
#182=VERTEX_POINT('',#597);
#183=VERTEX_POINT('',#598);
#184=VERTEX_POINT('',#600);
#185=VERTEX_POINT('',#602);
#186=VERTEX_POINT('',#606);
#187=VERTEX_POINT('',#607);
#188=VERTEX_POINT('',#609);
#189=VERTEX_POINT('',#611);
#190=VERTEX_POINT('',#618);
#191=VERTEX_POINT('',#620);
#192=VERTEX_POINT('',#622);
#193=VERTEX_POINT('',#624);
#194=VERTEX_POINT('',#626);
#195=VERTEX_POINT('',#628);
#196=VERTEX_POINT('',#630);
#197=VERTEX_POINT('',#632);
#198=VERTEX_POINT('',#634);
#199=VERTEX_POINT('',#636);
#200=VERTEX_POINT('',#638);
#201=VERTEX_POINT('',#640);
#202=VERTEX_POINT('',#642);
#203=VERTEX_POINT('',#644);
#204=VERTEX_POINT('',#648);
#205=VERTEX_POINT('',#650);
#206=VERTEX_POINT('',#654);
#207=VERTEX_POINT('',#656);
#208=VERTEX_POINT('',#662);
#209=VERTEX_POINT('',#666);
#210=VERTEX_POINT('',#672);
#211=VERTEX_POINT('',#674);
#212=VERTEX_POINT('',#678);
#213=VERTEX_POINT('',#682);
#214=VERTEX_POINT('',#688);
#215=VERTEX_POINT('',#690);
#216=VERTEX_POINT('',#696);
#217=VERTEX_POINT('',#700);
#218=EDGE_CURVE('',#180,#180,#166,.T.);
#219=EDGE_CURVE('',#180,#181,#78,.T.);
#220=EDGE_CURVE('',#181,#181,#167,.T.);
#221=EDGE_CURVE('',#182,#183,#79,.T.);
#222=EDGE_CURVE('',#184,#183,#80,.T.);
#223=EDGE_CURVE('',#184,#185,#81,.T.);
#224=EDGE_CURVE('',#182,#185,#82,.T.);
#225=EDGE_CURVE('',#186,#187,#83,.T.);
#226=EDGE_CURVE('',#188,#186,#84,.T.);
#227=EDGE_CURVE('',#188,#189,#85,.T.);
#228=EDGE_CURVE('',#187,#189,#86,.T.);
#229=EDGE_CURVE('',#185,#188,#87,.T.);
#230=EDGE_CURVE('',#189,#184,#88,.T.);
#231=EDGE_CURVE('',#183,#190,#168,.T.);
#232=EDGE_CURVE('',#190,#191,#89,.T.);
#233=EDGE_CURVE('',#192,#191,#90,.T.);
#234=EDGE_CURVE('',#192,#193,#91,.T.);
#235=EDGE_CURVE('',#193,#194,#169,.T.);
#236=EDGE_CURVE('',#194,#195,#92,.T.);
#237=EDGE_CURVE('',#195,#196,#93,.T.);
#238=EDGE_CURVE('',#196,#197,#94,.T.);
#239=EDGE_CURVE('',#197,#198,#170,.T.);
#240=EDGE_CURVE('',#198,#199,#95,.T.);
#241=EDGE_CURVE('',#199,#200,#96,.T.);
#242=EDGE_CURVE('',#201,#200,#97,.T.);
#243=EDGE_CURVE('',#202,#201,#98,.T.);
#244=EDGE_CURVE('',#202,#203,#99,.T.);
#245=EDGE_CURVE('',#203,#187,#171,.T.);
#246=EDGE_CURVE('',#204,#197,#100,.T.);
#247=EDGE_CURVE('',#196,#205,#101,.T.);
#248=EDGE_CURVE('',#204,#205,#102,.T.);
#249=EDGE_CURVE('',#206,#194,#103,.T.);
#250=EDGE_CURVE('',#207,#206,#104,.T.);
#251=EDGE_CURVE('',#207,#195,#105,.T.);
#252=EDGE_CURVE('',#205,#207,#106,.T.);
#253=EDGE_CURVE('',#208,#192,#172,.T.);
#254=EDGE_CURVE('',#192,#208,#107,.T.);
#255=EDGE_CURVE('',#191,#209,#173,.T.);
#256=EDGE_CURVE('',#208,#209,#108,.T.);
#257=EDGE_CURVE('',#209,#191,#109,.T.);
#258=EDGE_CURVE('',#210,#201,#174,.T.);
#259=EDGE_CURVE('',#211,#210,#110,.T.);
#260=EDGE_CURVE('',#202,#211,#111,.T.);
#261=EDGE_CURVE('',#200,#212,#175,.T.);
#262=EDGE_CURVE('',#212,#210,#112,.T.);
#263=EDGE_CURVE('',#213,#212,#113,.T.);
#264=EDGE_CURVE('',#211,#213,#114,.T.);
#265=EDGE_CURVE('',#213,#199,#115,.T.);
#266=EDGE_CURVE('',#214,#198,#116,.T.);
#267=EDGE_CURVE('',#215,#214,#117,.T.);
#268=EDGE_CURVE('',#215,#203,#118,.T.);
#269=EDGE_CURVE('',#214,#204,#176,.T.);
#270=EDGE_CURVE('',#206,#216,#177,.T.);
#271=EDGE_CURVE('',#216,#193,#119,.T.);
#272=EDGE_CURVE('',#217,#190,#120,.T.);
#273=EDGE_CURVE('',#216,#217,#121,.T.);
#274=EDGE_CURVE('',#217,#182,#178,.T.);
#275=EDGE_CURVE('',#186,#215,#179,.T.);
#276=ORIENTED_EDGE('',*,*,#218,.F.);
#277=ORIENTED_EDGE('',*,*,#219,.T.);
#278=ORIENTED_EDGE('',*,*,#220,.F.);
#279=ORIENTED_EDGE('',*,*,#219,.F.);
#280=ORIENTED_EDGE('',*,*,#221,.T.);
#281=ORIENTED_EDGE('',*,*,#222,.F.);
#282=ORIENTED_EDGE('',*,*,#223,.T.);
#283=ORIENTED_EDGE('',*,*,#224,.F.);
#284=ORIENTED_EDGE('',*,*,#225,.F.);
#285=ORIENTED_EDGE('',*,*,#226,.F.);
#286=ORIENTED_EDGE('',*,*,#227,.T.);
#287=ORIENTED_EDGE('',*,*,#228,.F.);
#288=ORIENTED_EDGE('',*,*,#229,.F.);
#289=ORIENTED_EDGE('',*,*,#223,.F.);
#290=ORIENTED_EDGE('',*,*,#230,.F.);
#291=ORIENTED_EDGE('',*,*,#227,.F.);
#292=ORIENTED_EDGE('',*,*,#228,.T.);
#293=ORIENTED_EDGE('',*,*,#230,.T.);
#294=ORIENTED_EDGE('',*,*,#222,.T.);
#295=ORIENTED_EDGE('',*,*,#231,.T.);
#296=ORIENTED_EDGE('',*,*,#232,.T.);
#297=ORIENTED_EDGE('',*,*,#233,.F.);
#298=ORIENTED_EDGE('',*,*,#234,.T.);
#299=ORIENTED_EDGE('',*,*,#235,.T.);
#300=ORIENTED_EDGE('',*,*,#236,.T.);
#301=ORIENTED_EDGE('',*,*,#237,.T.);
#302=ORIENTED_EDGE('',*,*,#238,.T.);
#303=ORIENTED_EDGE('',*,*,#239,.T.);
#304=ORIENTED_EDGE('',*,*,#240,.T.);
#305=ORIENTED_EDGE('',*,*,#241,.T.);
#306=ORIENTED_EDGE('',*,*,#242,.F.);
#307=ORIENTED_EDGE('',*,*,#243,.F.);
#308=ORIENTED_EDGE('',*,*,#244,.T.);
#309=ORIENTED_EDGE('',*,*,#245,.T.);
#310=ORIENTED_EDGE('',*,*,#220,.T.);
#311=ORIENTED_EDGE('',*,*,#246,.T.);
#312=ORIENTED_EDGE('',*,*,#238,.F.);
#313=ORIENTED_EDGE('',*,*,#247,.T.);
#314=ORIENTED_EDGE('',*,*,#248,.F.);
#315=ORIENTED_EDGE('',*,*,#249,.F.);
#316=ORIENTED_EDGE('',*,*,#250,.F.);
#317=ORIENTED_EDGE('',*,*,#251,.T.);
#318=ORIENTED_EDGE('',*,*,#236,.F.);
#319=ORIENTED_EDGE('',*,*,#252,.F.);
#320=ORIENTED_EDGE('',*,*,#247,.F.);
#321=ORIENTED_EDGE('',*,*,#237,.F.);
#322=ORIENTED_EDGE('',*,*,#251,.F.);
#323=ORIENTED_EDGE('',*,*,#253,.F.);
#324=ORIENTED_EDGE('',*,*,#254,.F.);
#325=ORIENTED_EDGE('',*,*,#253,.T.);
#326=ORIENTED_EDGE('',*,*,#233,.T.);
#327=ORIENTED_EDGE('',*,*,#255,.T.);
#328=ORIENTED_EDGE('',*,*,#256,.F.);
#329=ORIENTED_EDGE('',*,*,#255,.F.);
#330=ORIENTED_EDGE('',*,*,#257,.F.);
#331=ORIENTED_EDGE('',*,*,#258,.F.);
#332=ORIENTED_EDGE('',*,*,#259,.F.);
#333=ORIENTED_EDGE('',*,*,#260,.F.);
#334=ORIENTED_EDGE('',*,*,#243,.T.);
#335=ORIENTED_EDGE('',*,*,#258,.T.);
#336=ORIENTED_EDGE('',*,*,#242,.T.);
#337=ORIENTED_EDGE('',*,*,#261,.T.);
#338=ORIENTED_EDGE('',*,*,#262,.T.);
#339=ORIENTED_EDGE('',*,*,#262,.F.);
#340=ORIENTED_EDGE('',*,*,#263,.F.);
#341=ORIENTED_EDGE('',*,*,#264,.F.);
#342=ORIENTED_EDGE('',*,*,#259,.T.);
#343=ORIENTED_EDGE('',*,*,#261,.F.);
#344=ORIENTED_EDGE('',*,*,#241,.F.);
#345=ORIENTED_EDGE('',*,*,#265,.F.);
#346=ORIENTED_EDGE('',*,*,#263,.T.);
#347=ORIENTED_EDGE('',*,*,#265,.T.);
#348=ORIENTED_EDGE('',*,*,#240,.F.);
#349=ORIENTED_EDGE('',*,*,#266,.F.);
#350=ORIENTED_EDGE('',*,*,#267,.F.);
#351=ORIENTED_EDGE('',*,*,#268,.T.);
#352=ORIENTED_EDGE('',*,*,#244,.F.);
#353=ORIENTED_EDGE('',*,*,#260,.T.);
#354=ORIENTED_EDGE('',*,*,#264,.T.);
#355=ORIENTED_EDGE('',*,*,#269,.F.);
#356=ORIENTED_EDGE('',*,*,#266,.T.);
#357=ORIENTED_EDGE('',*,*,#239,.F.);
#358=ORIENTED_EDGE('',*,*,#246,.F.);
#359=ORIENTED_EDGE('',*,*,#270,.F.);
#360=ORIENTED_EDGE('',*,*,#249,.T.);
#361=ORIENTED_EDGE('',*,*,#235,.F.);
#362=ORIENTED_EDGE('',*,*,#271,.F.);
#363=ORIENTED_EDGE('',*,*,#257,.T.);
#364=ORIENTED_EDGE('',*,*,#232,.F.);
#365=ORIENTED_EDGE('',*,*,#272,.F.);
#366=ORIENTED_EDGE('',*,*,#273,.F.);
#367=ORIENTED_EDGE('',*,*,#271,.T.);
#368=ORIENTED_EDGE('',*,*,#234,.F.);
#369=ORIENTED_EDGE('',*,*,#254,.T.);
#370=ORIENTED_EDGE('',*,*,#256,.T.);
#371=ORIENTED_EDGE('',*,*,#274,.F.);
#372=ORIENTED_EDGE('',*,*,#272,.T.);
#373=ORIENTED_EDGE('',*,*,#231,.F.);
#374=ORIENTED_EDGE('',*,*,#221,.F.);
#375=ORIENTED_EDGE('',*,*,#275,.F.);
#376=ORIENTED_EDGE('',*,*,#225,.T.);
#377=ORIENTED_EDGE('',*,*,#245,.F.);
#378=ORIENTED_EDGE('',*,*,#268,.F.);
#379=ORIENTED_EDGE('',*,*,#226,.T.);
#380=ORIENTED_EDGE('',*,*,#275,.T.);
#381=ORIENTED_EDGE('',*,*,#267,.T.);
#382=ORIENTED_EDGE('',*,*,#269,.T.);
#383=ORIENTED_EDGE('',*,*,#248,.T.);
#384=ORIENTED_EDGE('',*,*,#252,.T.);
#385=ORIENTED_EDGE('',*,*,#250,.T.);
#386=ORIENTED_EDGE('',*,*,#270,.T.);
#387=ORIENTED_EDGE('',*,*,#273,.T.);
#388=ORIENTED_EDGE('',*,*,#274,.T.);
#389=ORIENTED_EDGE('',*,*,#224,.T.);
#390=ORIENTED_EDGE('',*,*,#229,.T.);
#391=ORIENTED_EDGE('',*,*,#218,.T.);
#392=CYLINDRICAL_SURFACE('',#435,7.5);
#393=CYLINDRICAL_SURFACE('',#451,0.5);
#394=CYLINDRICAL_SURFACE('',#456,0.5);
#395=CYLINDRICAL_SURFACE('',#461,1.99999999999999);
#396=CYLINDRICAL_SURFACE('',#463,2.);
#397=CYLINDRICAL_SURFACE('',#466,1.99999999999999);
#398=CYLINDRICAL_SURFACE('',#468,1.99999999999999);
#399=ADVANCED_FACE('',(#32),#392,.F.);
#400=ADVANCED_FACE('',(#33),#17,.F.);
#401=ADVANCED_FACE('',(#34),#18,.F.);
#402=ADVANCED_FACE('',(#35),#19,.F.);
#403=ADVANCED_FACE('',(#36,#15),#20,.F.);
#404=ADVANCED_FACE('',(#37),#21,.F.);
#405=ADVANCED_FACE('',(#38),#22,.F.);
#406=ADVANCED_FACE('',(#39),#23,.F.);
#407=ADVANCED_FACE('',(#40),#24,.T.);
#408=ADVANCED_FACE('',(#41),#393,.T.);
#409=ADVANCED_FACE('',(#42),#25,.T.);
#410=ADVANCED_FACE('',(#43),#26,.T.);
#411=ADVANCED_FACE('',(#44),#394,.T.);
#412=ADVANCED_FACE('',(#45),#27,.T.);
#413=ADVANCED_FACE('',(#46),#28,.T.);
#414=ADVANCED_FACE('',(#47),#29,.T.);
#415=ADVANCED_FACE('',(#48),#395,.T.);
#416=ADVANCED_FACE('',(#49),#396,.T.);
#417=ADVANCED_FACE('',(#50),#30,.T.);
#418=ADVANCED_FACE('',(#51),#397,.T.);
#419=ADVANCED_FACE('',(#52),#398,.T.);
#420=ADVANCED_FACE('',(#53,#16),#31,.T.);
#421=CLOSED_SHELL('',(#399,#400,#401,#402,#403,#404,#405,#406,#407,#408,
#409,#410,#411,#412,#413,#414,#415,#416,#417,#418,#419,#420));
#422=DERIVED_UNIT_ELEMENT(#424,1.);
#423=DERIVED_UNIT_ELEMENT(#713,-3.);
#424=(
MASS_UNIT()
NAMED_UNIT(*)
SI_UNIT(.KILO.,.GRAM.)
);
#425=DERIVED_UNIT((#422,#423));
#426=MEASURE_REPRESENTATION_ITEM('density measure',
POSITIVE_RATIO_MEASURE(7850.),#425);
#427=PROPERTY_DEFINITION_REPRESENTATION(#432,#429);
#428=PROPERTY_DEFINITION_REPRESENTATION(#433,#430);
#429=REPRESENTATION('material name',(#431),#710);
#430=REPRESENTATION('density',(#426),#710);
#431=DESCRIPTIVE_REPRESENTATION_ITEM('Steel','Steel');
#432=PROPERTY_DEFINITION('material property','material name',#720);
#433=PROPERTY_DEFINITION('material property','density of part',#720);
#434=AXIS2_PLACEMENT_3D('',#589,#471,#472);
#435=AXIS2_PLACEMENT_3D('',#590,#473,#474);
#436=AXIS2_PLACEMENT_3D('',#592,#475,#476);
#437=AXIS2_PLACEMENT_3D('',#595,#478,#479);
#438=AXIS2_PLACEMENT_3D('',#596,#480,#481);
#439=AXIS2_PLACEMENT_3D('',#605,#486,#487);
#440=AXIS2_PLACEMENT_3D('',#614,#492,#493);
#441=AXIS2_PLACEMENT_3D('',#617,#496,#497);
#442=AXIS2_PLACEMENT_3D('',#619,#498,#499);
#443=AXIS2_PLACEMENT_3D('',#627,#503,#504);
#444=AXIS2_PLACEMENT_3D('',#635,#508,#509);
#445=AXIS2_PLACEMENT_3D('',#646,#515,#516);
#446=AXIS2_PLACEMENT_3D('',#647,#517,#518);
#447=AXIS2_PLACEMENT_3D('',#653,#522,#523);
#448=AXIS2_PLACEMENT_3D('',#659,#527,#528);
#449=AXIS2_PLACEMENT_3D('',#661,#530,#531);
#450=AXIS2_PLACEMENT_3D('',#663,#532,#533);
#451=AXIS2_PLACEMENT_3D('',#665,#535,#536);
#452=AXIS2_PLACEMENT_3D('',#667,#537,#538);
#453=AXIS2_PLACEMENT_3D('',#669,#540,#541);
#454=AXIS2_PLACEMENT_3D('',#671,#543,#544);
#455=AXIS2_PLACEMENT_3D('',#673,#545,#546);
#456=AXIS2_PLACEMENT_3D('',#677,#549,#550);
#457=AXIS2_PLACEMENT_3D('',#679,#551,#552);
#458=AXIS2_PLACEMENT_3D('',#681,#554,#555);
#459=AXIS2_PLACEMENT_3D('',#685,#558,#559);
#460=AXIS2_PLACEMENT_3D('',#687,#561,#562);
#461=AXIS2_PLACEMENT_3D('',#693,#566,#567);
#462=AXIS2_PLACEMENT_3D('',#694,#568,#569);
#463=AXIS2_PLACEMENT_3D('',#695,#570,#571);
#464=AXIS2_PLACEMENT_3D('',#697,#572,#573);
#465=AXIS2_PLACEMENT_3D('',#699,#575,#576);
#466=AXIS2_PLACEMENT_3D('',#703,#579,#580);
#467=AXIS2_PLACEMENT_3D('',#704,#581,#582);
#468=AXIS2_PLACEMENT_3D('',#705,#583,#584);
#469=AXIS2_PLACEMENT_3D('',#706,#585,#586);
#470=AXIS2_PLACEMENT_3D('',#707,#587,#588);
#471=DIRECTION('axis',(0.,0.,1.));
#472=DIRECTION('refdir',(1.,0.,0.));
#473=DIRECTION('center_axis',(0.,0.,-1.));
#474=DIRECTION('ref_axis',(-1.,0.,0.));
#475=DIRECTION('center_axis',(0.,0.,-1.));
#476=DIRECTION('ref_axis',(-1.,0.,0.));
#477=DIRECTION('',(0.,0.,-1.));
#478=DIRECTION('center_axis',(0.,0.,1.));
#479=DIRECTION('ref_axis',(-1.,0.,0.));
#480=DIRECTION('center_axis',(-1.,0.,0.));
#481=DIRECTION('ref_axis',(0.,0.,1.));
#482=DIRECTION('',(0.,0.,-1.));
#483=DIRECTION('',(0.,-1.,0.));
#484=DIRECTION('',(0.,0.,1.));
#485=DIRECTION('',(0.,1.,0.));
#486=DIRECTION('center_axis',(1.,0.,0.));
#487=DIRECTION('ref_axis',(0.,0.,-1.));
#488=DIRECTION('',(0.,0.,-1.));
#489=DIRECTION('',(0.,-1.,0.));
#490=DIRECTION('',(0.,0.,-1.));
#491=DIRECTION('',(0.,1.,0.));
#492=DIRECTION('center_axis',(0.,1.,0.));
#493=DIRECTION('ref_axis',(0.,0.,1.));
#494=DIRECTION('',(1.,0.,0.));
#495=DIRECTION('',(-1.,0.,0.));
#496=DIRECTION('center_axis',(0.,0.,1.));
#497=DIRECTION('ref_axis',(-1.,0.,0.));
#498=DIRECTION('center_axis',(0.,0.,-1.));
#499=DIRECTION('ref_axis',(-1.,0.,0.));
#500=DIRECTION('',(0.,1.,0.));
#501=DIRECTION('',(0.,-1.,0.));
#502=DIRECTION('',(0.,1.,0.));
#503=DIRECTION('center_axis',(0.,0.,-1.));
#504=DIRECTION('ref_axis',(0.,1.,0.));
#505=DIRECTION('',(0.,-1.,0.));
#506=DIRECTION('',(1.,0.,0.));
#507=DIRECTION('',(0.,1.,0.));
#508=DIRECTION('center_axis',(0.,0.,-1.));
#509=DIRECTION('ref_axis',(1.,0.,0.));
#510=DIRECTION('',(0.,-1.,0.));
#511=DIRECTION('',(1.,0.,0.));
#512=DIRECTION('',(0.,1.,0.));
#513=DIRECTION('',(1.,0.,0.));
#514=DIRECTION('',(0.,-1.,0.));
#515=DIRECTION('center_axis',(0.,0.,-1.));
#516=DIRECTION('ref_axis',(0.,-1.,0.));
#517=DIRECTION('center_axis',(1.,0.,0.));
#518=DIRECTION('ref_axis',(0.,0.,1.));
#519=DIRECTION('',(0.,0.,-1.));
#520=DIRECTION('',(0.,0.,1.));
#521=DIRECTION('',(0.,-1.,0.));
#522=DIRECTION('center_axis',(-1.,0.,0.));
#523=DIRECTION('ref_axis',(0.,0.,-1.));
#524=DIRECTION('',(0.,0.,-1.));
#525=DIRECTION('',(0.,1.,0.));
#526=DIRECTION('',(0.,0.,-1.));
#527=DIRECTION('center_axis',(0.,-1.,0.));
#528=DIRECTION('ref_axis',(0.,0.,-1.));
#529=DIRECTION('',(-1.,0.,0.));
#530=DIRECTION('center_axis',(0.,1.,0.));
#531=DIRECTION('ref_axis',(0.,0.,-1.));
#532=DIRECTION('center_axis',(0.,-1.,0.));
#533=DIRECTION('ref_axis',(-0.707106781186551,0.,-0.707106781186544));
#534=DIRECTION('',(0.,0.,1.));
#535=DIRECTION('center_axis',(0.,1.,0.));
#536=DIRECTION('ref_axis',(-0.707106781186551,0.,0.707106781186544));
#537=DIRECTION('center_axis',(0.,1.,0.));
#538=DIRECTION('ref_axis',(-0.707106781186551,0.,0.707106781186544));
#539=DIRECTION('',(0.,-1.,0.));
#540=DIRECTION('center_axis',(0.,-1.,0.));
#541=DIRECTION('ref_axis',(0.,0.,1.));
#542=DIRECTION('',(0.,0.,-1.));
#543=DIRECTION('center_axis',(0.,-1.,0.));
#544=DIRECTION('ref_axis',(0.,0.,-1.));
#545=DIRECTION('center_axis',(0.,1.,0.));
#546=DIRECTION('ref_axis',(0.707106781186551,0.,-0.707106781186544));
#547=DIRECTION('',(1.,0.,0.));
#548=DIRECTION('',(0.,0.,1.));
#549=DIRECTION('center_axis',(0.,-1.,0.));
#550=DIRECTION('ref_axis',(0.707106781186576,0.,0.707106781186519));
#551=DIRECTION('center_axis',(0.,-1.,0.));
#552=DIRECTION('ref_axis',(0.707106781186576,0.,0.707106781186519));
#553=DIRECTION('',(0.,-1.,0.));
#554=DIRECTION('center_axis',(0.,0.,1.));
#555=DIRECTION('ref_axis',(0.,-1.,0.));
#556=DIRECTION('',(1.,0.,0.));
#557=DIRECTION('',(0.,1.,0.));
#558=DIRECTION('center_axis',(0.,1.,0.));
#559=DIRECTION('ref_axis',(0.,0.,1.));
#560=DIRECTION('',(0.,0.,-1.));
#561=DIRECTION('center_axis',(1.,0.,0.));
#562=DIRECTION('ref_axis',(0.,-1.,0.));
#563=DIRECTION('',(0.,0.,-1.));
#564=DIRECTION('',(0.,1.,0.));
#565=DIRECTION('',(0.,0.,-1.));
#566=DIRECTION('center_axis',(0.,0.,-1.));
#567=DIRECTION('ref_axis',(1.,0.,0.));
#568=DIRECTION('center_axis',(0.,0.,1.));
#569=DIRECTION('ref_axis',(1.,0.,0.));
#570=DIRECTION('center_axis',(0.,0.,-1.));
#571=DIRECTION('ref_axis',(0.,1.,0.));
#572=DIRECTION('center_axis',(0.,0.,1.));
#573=DIRECTION('ref_axis',(0.,1.,0.));
#574=DIRECTION('',(0.,0.,-1.));
#575=DIRECTION('center_axis',(-1.,0.,0.));
#576=DIRECTION('ref_axis',(0.,1.,0.));
#577=DIRECTION('',(0.,0.,-1.));
#578=DIRECTION('',(0.,-1.,0.));
#579=DIRECTION('center_axis',(0.,0.,-1.));
#580=DIRECTION('ref_axis',(-1.,0.,0.));
#581=DIRECTION('center_axis',(0.,0.,1.));
#582=DIRECTION('ref_axis',(-1.,0.,0.));
#583=DIRECTION('center_axis',(0.,0.,-1.));
#584=DIRECTION('ref_axis',(0.,-1.,0.));
#585=DIRECTION('center_axis',(0.,0.,1.));
#586=DIRECTION('ref_axis',(0.,-1.,0.));
#587=DIRECTION('center_axis',(0.,0.,1.));
#588=DIRECTION('ref_axis',(-1.,0.,0.));
#589=CARTESIAN_POINT('',(0.,0.,0.));
#590=CARTESIAN_POINT('Origin',(100.028010583379,-69.4,19.5));
#591=CARTESIAN_POINT('',(107.528010583379,-69.4,19.5));
#592=CARTESIAN_POINT('Origin',(100.028010583379,-69.4,19.5));
#593=CARTESIAN_POINT('',(107.528010583379,-69.4,17.5));
#594=CARTESIAN_POINT('',(107.528010583379,-69.4,19.5));
#595=CARTESIAN_POINT('Origin',(100.028010583379,-69.4,17.5));
#596=CARTESIAN_POINT('Origin',(84.05,-86.35,17.5));
#597=CARTESIAN_POINT('',(84.05,-86.35,19.5));
#598=CARTESIAN_POINT('',(84.05,-86.35,17.5));
#599=CARTESIAN_POINT('',(84.05,-86.35,19.5));
#600=CARTESIAN_POINT('',(84.05,-86.3,17.5));
#601=CARTESIAN_POINT('',(84.05,-77.875,17.5));
#602=CARTESIAN_POINT('',(84.05,-86.3,19.5));
#603=CARTESIAN_POINT('',(84.05,-86.3,19.5));
#604=CARTESIAN_POINT('',(84.05,-77.875,19.5));
#605=CARTESIAN_POINT('Origin',(146.05,-86.35,19.5));
#606=CARTESIAN_POINT('',(146.05,-86.35,19.5));
#607=CARTESIAN_POINT('',(146.05,-86.35,17.5));
#608=CARTESIAN_POINT('',(146.05,-86.35,19.5));
#609=CARTESIAN_POINT('',(146.05,-86.3,19.5));
#610=CARTESIAN_POINT('',(146.05,-77.875,19.5));
#611=CARTESIAN_POINT('',(146.05,-86.3,17.5));
#612=CARTESIAN_POINT('',(146.05,-86.3,19.5));
#613=CARTESIAN_POINT('',(146.05,-77.875,17.5));
#614=CARTESIAN_POINT('Origin',(146.05,-86.3,19.5));
#615=CARTESIAN_POINT('',(130.55,-86.3,19.5));
#616=CARTESIAN_POINT('',(130.55,-86.3,17.5));
#617=CARTESIAN_POINT('Origin',(115.05,-69.4,17.5));
#618=CARTESIAN_POINT('',(82.05,-84.35,17.5));
#619=CARTESIAN_POINT('Origin',(84.05,-84.35,17.5));
#620=CARTESIAN_POINT('',(82.05,-73.85,17.5));
#621=CARTESIAN_POINT('',(82.05,-52.45,17.5));
#622=CARTESIAN_POINT('',(82.05,-64.95,17.5));
#623=CARTESIAN_POINT('',(82.05,-69.4,17.5));
#624=CARTESIAN_POINT('',(82.05,-54.45,17.5));
#625=CARTESIAN_POINT('',(82.05,-52.45,17.5));
#626=CARTESIAN_POINT('',(84.05,-52.45,17.5));
#627=CARTESIAN_POINT('Origin',(84.05,-54.45,17.5));
#628=CARTESIAN_POINT('',(84.05,-52.5,17.5));
#629=CARTESIAN_POINT('',(84.05,-60.925,17.5));
#630=CARTESIAN_POINT('',(146.05,-52.5,17.5));
#631=CARTESIAN_POINT('',(99.55,-52.5,17.5));
#632=CARTESIAN_POINT('',(146.05,-52.45,17.5));
#633=CARTESIAN_POINT('',(146.05,-60.925,17.5));
#634=CARTESIAN_POINT('',(148.05,-54.45,17.5));
#635=CARTESIAN_POINT('Origin',(146.05,-54.45,17.5));
#636=CARTESIAN_POINT('',(148.05,-64.95,17.5));
#637=CARTESIAN_POINT('',(148.05,-86.35,17.5));
#638=CARTESIAN_POINT('',(148.55,-64.95,17.5));
#639=CARTESIAN_POINT('',(148.05,-64.95,17.5));
#640=CARTESIAN_POINT('',(148.55,-73.85,17.5));
#641=CARTESIAN_POINT('',(148.55,-69.4,17.5));
#642=CARTESIAN_POINT('',(148.05,-73.85,17.5));
#643=CARTESIAN_POINT('',(148.05,-73.85,17.5));
#644=CARTESIAN_POINT('',(148.05,-84.35,17.5));
#645=CARTESIAN_POINT('',(148.05,-86.35,17.5));
#646=CARTESIAN_POINT('Origin',(146.05,-84.35,17.5));
#647=CARTESIAN_POINT('Origin',(146.05,-52.45,17.5));
#648=CARTESIAN_POINT('',(146.05,-52.45,19.5));
#649=CARTESIAN_POINT('',(146.05,-52.45,19.5));
#650=CARTESIAN_POINT('',(146.05,-52.5,19.5));
#651=CARTESIAN_POINT('',(146.05,-52.5,19.5));
#652=CARTESIAN_POINT('',(146.05,-60.925,19.5));
#653=CARTESIAN_POINT('Origin',(84.05,-52.45,19.5));
#654=CARTESIAN_POINT('',(84.05,-52.45,19.5));
#655=CARTESIAN_POINT('',(84.05,-52.45,19.5));
#656=CARTESIAN_POINT('',(84.05,-52.5,19.5));
#657=CARTESIAN_POINT('',(84.05,-60.925,19.5));
#658=CARTESIAN_POINT('',(84.05,-52.5,19.5));
#659=CARTESIAN_POINT('Origin',(84.05,-52.5,19.5));
#660=CARTESIAN_POINT('',(99.55,-52.5,19.5));
#661=CARTESIAN_POINT('Origin',(82.05,-64.95,18.5));
#662=CARTESIAN_POINT('',(82.05,-64.95,18.5));
#663=CARTESIAN_POINT('Origin',(82.05,-64.95,18.));
#664=CARTESIAN_POINT('',(82.05,-64.95,19.));
#665=CARTESIAN_POINT('Origin',(82.05,-71.625,18.));
#666=CARTESIAN_POINT('',(82.05,-73.85,18.5));
#667=CARTESIAN_POINT('Origin',(82.05,-73.85,18.));
#668=CARTESIAN_POINT('',(82.05,-79.1,18.5));
#669=CARTESIAN_POINT('Origin',(82.05,-73.85,17.5));
#670=CARTESIAN_POINT('',(82.05,-73.85,18.5));
#671=CARTESIAN_POINT('Origin',(148.05,-73.85,18.5));
#672=CARTESIAN_POINT('',(148.55,-73.85,18.5));
#673=CARTESIAN_POINT('Origin',(148.55,-73.85,18.));
#674=CARTESIAN_POINT('',(148.05,-73.85,18.5));
#675=CARTESIAN_POINT('',(148.05,-73.85,18.5));
#676=CARTESIAN_POINT('',(148.05,-73.85,19.));
#677=CARTESIAN_POINT('Origin',(148.55,-67.175,18.));
#678=CARTESIAN_POINT('',(148.55,-64.95,18.5));
#679=CARTESIAN_POINT('Origin',(148.55,-64.95,18.));
#680=CARTESIAN_POINT('',(148.55,-67.175,18.5));
#681=CARTESIAN_POINT('Origin',(148.05,-64.95,18.5));
#682=CARTESIAN_POINT('',(148.05,-64.95,18.5));
#683=CARTESIAN_POINT('',(148.05,-64.95,18.5));
#684=CARTESIAN_POINT('',(148.05,-59.7,18.5));
#685=CARTESIAN_POINT('Origin',(148.05,-64.95,17.5));
#686=CARTESIAN_POINT('',(148.05,-64.95,18.5));
#687=CARTESIAN_POINT('Origin',(148.05,-54.45,19.5));
#688=CARTESIAN_POINT('',(148.05,-54.45,19.5));
#689=CARTESIAN_POINT('',(148.05,-54.45,19.5));
#690=CARTESIAN_POINT('',(148.05,-84.35,19.5));
#691=CARTESIAN_POINT('',(148.05,-86.35,19.5));
#692=CARTESIAN_POINT('',(148.05,-84.35,19.5));
#693=CARTESIAN_POINT('Origin',(146.05,-54.45,19.5));
#694=CARTESIAN_POINT('Origin',(146.05,-54.45,19.5));
#695=CARTESIAN_POINT('Origin',(84.05,-54.45,19.5));
#696=CARTESIAN_POINT('',(82.05,-54.45,19.5));
#697=CARTESIAN_POINT('Origin',(84.05,-54.45,19.5));
#698=CARTESIAN_POINT('',(82.05,-54.45,19.5));
#699=CARTESIAN_POINT('Origin',(82.05,-84.35,19.5));
#700=CARTESIAN_POINT('',(82.05,-84.35,19.5));
#701=CARTESIAN_POINT('',(82.05,-84.35,19.5));
#702=CARTESIAN_POINT('',(82.05,-52.45,19.5));
#703=CARTESIAN_POINT('Origin',(84.05,-84.35,19.5));
#704=CARTESIAN_POINT('Origin',(84.05,-84.35,19.5));
#705=CARTESIAN_POINT('Origin',(146.05,-84.35,19.5));
#706=CARTESIAN_POINT('Origin',(146.05,-84.35,19.5));
#707=CARTESIAN_POINT('Origin',(115.05,-69.4,19.5));
#708=UNCERTAINTY_MEASURE_WITH_UNIT(LENGTH_MEASURE(0.01),#712,
'DISTANCE_ACCURACY_VALUE',
'Maximum model space distance between geometric entities at asserted c
onnectivities');
#709=UNCERTAINTY_MEASURE_WITH_UNIT(LENGTH_MEASURE(0.01),#712,
'DISTANCE_ACCURACY_VALUE',
'Maximum model space distance between geometric entities at asserted c
onnectivities');
#710=(
GEOMETRIC_REPRESENTATION_CONTEXT(3)
GLOBAL_UNCERTAINTY_ASSIGNED_CONTEXT((#708))
GLOBAL_UNIT_ASSIGNED_CONTEXT((#712,#714,#715))
REPRESENTATION_CONTEXT('','3D')
);
#711=(
GEOMETRIC_REPRESENTATION_CONTEXT(3)
GLOBAL_UNCERTAINTY_ASSIGNED_CONTEXT((#709))
GLOBAL_UNIT_ASSIGNED_CONTEXT((#712,#714,#715))
REPRESENTATION_CONTEXT('','3D')
);
#712=(
LENGTH_UNIT()
NAMED_UNIT(*)
SI_UNIT(.MILLI.,.METRE.)
);
#713=(
LENGTH_UNIT()
NAMED_UNIT(*)
SI_UNIT($,.METRE.)
);
#714=(
NAMED_UNIT(*)
PLANE_ANGLE_UNIT()
SI_UNIT($,.RADIAN.)
);
#715=(
NAMED_UNIT(*)
SI_UNIT($,.STERADIAN.)
SOLID_ANGLE_UNIT()
);
#716=SHAPE_DEFINITION_REPRESENTATION(#717,#718);
#717=PRODUCT_DEFINITION_SHAPE('',$,#720);
#718=SHAPE_REPRESENTATION('',(#434),#710);
#719=PRODUCT_DEFINITION_CONTEXT('part definition',#724,'design');
#720=PRODUCT_DEFINITION('Capot','Capot',#721,#719);
#721=PRODUCT_DEFINITION_FORMATION('',$,#726);
#722=PRODUCT_RELATED_PRODUCT_CATEGORY('Capot','Capot',(#726));
#723=APPLICATION_PROTOCOL_DEFINITION('international standard',
'automotive_design',2009,#724);
#724=APPLICATION_CONTEXT(
'Core Data for Automotive Mechanical Design Process');
#725=PRODUCT_CONTEXT('part definition',#724,'mechanical');
#726=PRODUCT('Capot','Capot',$,(#725));
#727=PRESENTATION_STYLE_ASSIGNMENT((#728));
#728=SURFACE_STYLE_USAGE(.BOTH.,#729);
#729=SURFACE_SIDE_STYLE('',(#730));
#730=SURFACE_STYLE_FILL_AREA(#731);
#731=FILL_AREA_STYLE('Steel - Satin',(#732));
#732=FILL_AREA_STYLE_COLOUR('Steel - Satin',#733);
#733=COLOUR_RGB('Steel - Satin',0.627450980392157,0.627450980392157,0.627450980392157);
ENDSEC;
END-ISO-10303-21;
