ISO-10303-21;
HEADER;
/* Generated by software containing ST-Developer
 * from STEP Tools, Inc. (www.steptools.com) 
 */

FILE_DESCRIPTION(
/* description */ (''),
/* implementation_level */ '2;1');

FILE_NAME(
/* name */ 'Separateur.step',
/* time_stamp */ '2026-02-03T23:05:31+01:00',
/* author */ (''),
/* organization */ (''),
/* preprocessor_version */ 'ST-DEVELOPER v20.1',
/* originating_system */ 'Autodesk Translation Framework v14.21.0.0',
/* authorisation */ '');

FILE_SCHEMA (('AUTOMOTIVE_DESIGN { 1 0 10303 214 3 1 1 }'));
ENDSEC;

DATA;
#10=MECHANICAL_DESIGN_GEOMETRIC_PRESENTATION_REPRESENTATION('',(#13),#502);
#11=SHAPE_REPRESENTATION_RELATIONSHIP('SRR','None',#509,#12);
#12=ADVANCED_BREP_SHAPE_REPRESENTATION('',(#14),#501);
#13=STYLED_ITEM('',(#518),#14);
#14=MANIFOLD_SOLID_BREP('Body1',#280);
#15=PLANE('',#323);
#16=PLANE('',#324);
#17=PLANE('',#325);
#18=PLANE('',#326);
#19=PLANE('',#327);
#20=PLANE('',#328);
#21=ELLIPSE('',#311,0.707106781186546,0.5);
#22=ELLIPSE('',#313,0.707106781186549,0.5);
#23=LINE('',#453,#44);
#24=LINE('',#455,#45);
#25=LINE('',#459,#46);
#26=LINE('',#461,#47);
#27=LINE('',#464,#48);
#28=LINE('',#465,#49);
#29=LINE('',#467,#50);
#30=LINE('',#468,#51);
#31=LINE('',#470,#52);
#32=LINE('',#471,#53);
#33=LINE('',#473,#54);
#34=LINE('',#474,#55);
#35=LINE('',#479,#56);
#36=LINE('',#480,#57);
#37=LINE('',#482,#58);
#38=LINE('',#483,#59);
#39=LINE('',#488,#60);
#40=LINE('',#489,#61);
#41=LINE('',#491,#62);
#42=LINE('',#493,#63);
#43=LINE('',#497,#64);
#44=VECTOR('',#365,10.);
#45=VECTOR('',#366,10.);
#46=VECTOR('',#371,10.);
#47=VECTOR('',#372,10.);
#48=VECTOR('',#377,10.);
#49=VECTOR('',#378,10.);
#50=VECTOR('',#381,10.);
#51=VECTOR('',#382,10.);
#52=VECTOR('',#385,10.);
#53=VECTOR('',#386,10.);
#54=VECTOR('',#389,10.);
#55=VECTOR('',#390,10.);
#56=VECTOR('',#395,10.);
#57=VECTOR('',#396,10.);
#58=VECTOR('',#399,10.);
#59=VECTOR('',#400,10.);
#60=VECTOR('',#405,10.);
#61=VECTOR('',#406,10.);
#62=VECTOR('',#409,10.);
#63=VECTOR('',#412,10.);
#64=VECTOR('',#419,10.);
#65=CYLINDRICAL_SURFACE('',#310,0.5);
#66=CYLINDRICAL_SURFACE('',#312,0.5);
#67=CYLINDRICAL_SURFACE('',#314,0.5);
#68=CYLINDRICAL_SURFACE('',#315,0.5);
#69=CYLINDRICAL_SURFACE('',#316,0.5);
#70=CYLINDRICAL_SURFACE('',#317,0.5);
#71=CYLINDRICAL_SURFACE('',#318,0.5);
#72=CYLINDRICAL_SURFACE('',#320,0.5);
#73=CYLINDRICAL_SURFACE('',#321,0.5);
#74=FACE_OUTER_BOUND('',#93,.T.);
#75=FACE_OUTER_BOUND('',#94,.T.);
#76=FACE_OUTER_BOUND('',#95,.T.);
#77=FACE_OUTER_BOUND('',#96,.T.);
#78=FACE_OUTER_BOUND('',#97,.T.);
#79=FACE_OUTER_BOUND('',#98,.T.);
#80=FACE_OUTER_BOUND('',#99,.T.);
#81=FACE_OUTER_BOUND('',#100,.T.);
#82=FACE_OUTER_BOUND('',#101,.T.);
#83=FACE_OUTER_BOUND('',#102,.T.);
#84=FACE_OUTER_BOUND('',#103,.T.);
#85=FACE_OUTER_BOUND('',#104,.T.);
#86=FACE_OUTER_BOUND('',#105,.T.);
#87=FACE_OUTER_BOUND('',#106,.T.);
#88=FACE_OUTER_BOUND('',#107,.T.);
#89=FACE_OUTER_BOUND('',#108,.T.);
#90=FACE_OUTER_BOUND('',#109,.T.);
#91=FACE_OUTER_BOUND('',#110,.T.);
#92=FACE_OUTER_BOUND('',#111,.T.);
#93=EDGE_LOOP('',(#183,#184,#185));
#94=EDGE_LOOP('',(#186,#187,#188));
#95=EDGE_LOOP('',(#189,#190,#191));
#96=EDGE_LOOP('',(#192,#193,#194));
#97=EDGE_LOOP('',(#195,#196,#197,#198));
#98=EDGE_LOOP('',(#199,#200,#201,#202));
#99=EDGE_LOOP('',(#203,#204,#205,#206));
#100=EDGE_LOOP('',(#207,#208,#209,#210));
#101=EDGE_LOOP('',(#211,#212,#213,#214));
#102=EDGE_LOOP('',(#215,#216,#217,#218));
#103=EDGE_LOOP('',(#219,#220,#221,#222));
#104=EDGE_LOOP('',(#223,#224,#225,#226));
#105=EDGE_LOOP('',(#227,#228,#229,#230));
#106=EDGE_LOOP('',(#231,#232,#233,#234));
#107=EDGE_LOOP('',(#235,#236,#237,#238));
#108=EDGE_LOOP('',(#239,#240,#241,#242));
#109=EDGE_LOOP('',(#243,#244,#245,#246));
#110=EDGE_LOOP('',(#247,#248,#249,#250,#251,#252));
#111=EDGE_LOOP('',(#253,#254,#255,#256));
#112=CIRCLE('',#295,0.5);
#113=CIRCLE('',#296,0.5);
#114=CIRCLE('',#297,0.5);
#115=CIRCLE('',#299,0.5);
#116=CIRCLE('',#300,0.5);
#117=CIRCLE('',#301,0.5);
#118=CIRCLE('',#303,0.499999999999998);
#119=CIRCLE('',#304,0.5);
#120=CIRCLE('',#305,0.5);
#121=CIRCLE('',#307,0.499999999999998);
#122=CIRCLE('',#308,0.5);
#123=CIRCLE('',#309,0.5);
#124=CIRCLE('',#319,0.5);
#125=CIRCLE('',#322,0.5);
#126=VERTEX_POINT('',#424);
#127=VERTEX_POINT('',#425);
#128=VERTEX_POINT('',#427);
#129=VERTEX_POINT('',#431);
#130=VERTEX_POINT('',#432);
#131=VERTEX_POINT('',#434);
#132=VERTEX_POINT('',#438);
#133=VERTEX_POINT('',#439);
#134=VERTEX_POINT('',#441);
#135=VERTEX_POINT('',#445);
#136=VERTEX_POINT('',#446);
#137=VERTEX_POINT('',#448);
#138=VERTEX_POINT('',#452);
#139=VERTEX_POINT('',#454);
#140=VERTEX_POINT('',#458);
#141=VERTEX_POINT('',#460);
#142=VERTEX_POINT('',#476);
#143=VERTEX_POINT('',#477);
#144=VERTEX_POINT('',#485);
#145=VERTEX_POINT('',#486);
#146=EDGE_CURVE('',#126,#127,#112,.F.);
#147=EDGE_CURVE('',#128,#126,#113,.F.);
#148=EDGE_CURVE('',#127,#128,#114,.F.);
#149=EDGE_CURVE('',#129,#130,#115,.F.);
#150=EDGE_CURVE('',#131,#129,#116,.F.);
#151=EDGE_CURVE('',#130,#131,#117,.F.);
#152=EDGE_CURVE('',#132,#133,#118,.F.);
#153=EDGE_CURVE('',#134,#132,#119,.F.);
#154=EDGE_CURVE('',#133,#134,#120,.F.);
#155=EDGE_CURVE('',#135,#136,#121,.F.);
#156=EDGE_CURVE('',#137,#135,#122,.F.);
#157=EDGE_CURVE('',#136,#137,#123,.F.);
#158=EDGE_CURVE('',#138,#137,#23,.T.);
#159=EDGE_CURVE('',#135,#139,#24,.T.);
#160=EDGE_CURVE('',#139,#138,#21,.T.);
#161=EDGE_CURVE('',#140,#138,#25,.T.);
#162=EDGE_CURVE('',#139,#141,#26,.T.);
#163=EDGE_CURVE('',#141,#140,#22,.T.);
#164=EDGE_CURVE('',#141,#132,#27,.T.);
#165=EDGE_CURVE('',#133,#140,#28,.T.);
#166=EDGE_CURVE('',#137,#131,#29,.T.);
#167=EDGE_CURVE('',#129,#136,#30,.T.);
#168=EDGE_CURVE('',#132,#135,#31,.T.);
#169=EDGE_CURVE('',#136,#134,#32,.T.);
#170=EDGE_CURVE('',#127,#133,#33,.T.);
#171=EDGE_CURVE('',#134,#126,#34,.T.);
#172=EDGE_CURVE('',#142,#143,#124,.T.);
#173=EDGE_CURVE('',#143,#130,#35,.T.);
#174=EDGE_CURVE('',#131,#142,#36,.T.);
#175=EDGE_CURVE('',#126,#129,#37,.T.);
#176=EDGE_CURVE('',#130,#128,#38,.T.);
#177=EDGE_CURVE('',#144,#145,#125,.T.);
#178=EDGE_CURVE('',#145,#127,#39,.T.);
#179=EDGE_CURVE('',#128,#144,#40,.T.);
#180=EDGE_CURVE('',#145,#140,#41,.T.);
#181=EDGE_CURVE('',#143,#144,#42,.T.);
#182=EDGE_CURVE('',#138,#142,#43,.T.);
#183=ORIENTED_EDGE('',*,*,#146,.F.);
#184=ORIENTED_EDGE('',*,*,#147,.F.);
#185=ORIENTED_EDGE('',*,*,#148,.F.);
#186=ORIENTED_EDGE('',*,*,#149,.F.);
#187=ORIENTED_EDGE('',*,*,#150,.F.);
#188=ORIENTED_EDGE('',*,*,#151,.F.);
#189=ORIENTED_EDGE('',*,*,#152,.F.);
#190=ORIENTED_EDGE('',*,*,#153,.F.);
#191=ORIENTED_EDGE('',*,*,#154,.F.);
#192=ORIENTED_EDGE('',*,*,#155,.F.);
#193=ORIENTED_EDGE('',*,*,#156,.F.);
#194=ORIENTED_EDGE('',*,*,#157,.F.);
#195=ORIENTED_EDGE('',*,*,#158,.T.);
#196=ORIENTED_EDGE('',*,*,#156,.T.);
#197=ORIENTED_EDGE('',*,*,#159,.T.);
#198=ORIENTED_EDGE('',*,*,#160,.T.);
#199=ORIENTED_EDGE('',*,*,#161,.T.);
#200=ORIENTED_EDGE('',*,*,#160,.F.);
#201=ORIENTED_EDGE('',*,*,#162,.T.);
#202=ORIENTED_EDGE('',*,*,#163,.T.);
#203=ORIENTED_EDGE('',*,*,#164,.T.);
#204=ORIENTED_EDGE('',*,*,#152,.T.);
#205=ORIENTED_EDGE('',*,*,#165,.T.);
#206=ORIENTED_EDGE('',*,*,#163,.F.);
#207=ORIENTED_EDGE('',*,*,#157,.T.);
#208=ORIENTED_EDGE('',*,*,#166,.T.);
#209=ORIENTED_EDGE('',*,*,#150,.T.);
#210=ORIENTED_EDGE('',*,*,#167,.T.);
#211=ORIENTED_EDGE('',*,*,#153,.T.);
#212=ORIENTED_EDGE('',*,*,#168,.T.);
#213=ORIENTED_EDGE('',*,*,#155,.T.);
#214=ORIENTED_EDGE('',*,*,#169,.T.);
#215=ORIENTED_EDGE('',*,*,#146,.T.);
#216=ORIENTED_EDGE('',*,*,#170,.T.);
#217=ORIENTED_EDGE('',*,*,#154,.T.);
#218=ORIENTED_EDGE('',*,*,#171,.T.);
#219=ORIENTED_EDGE('',*,*,#172,.T.);
#220=ORIENTED_EDGE('',*,*,#173,.T.);
#221=ORIENTED_EDGE('',*,*,#151,.T.);
#222=ORIENTED_EDGE('',*,*,#174,.T.);
#223=ORIENTED_EDGE('',*,*,#147,.T.);
#224=ORIENTED_EDGE('',*,*,#175,.T.);
#225=ORIENTED_EDGE('',*,*,#149,.T.);
#226=ORIENTED_EDGE('',*,*,#176,.T.);
#227=ORIENTED_EDGE('',*,*,#177,.T.);
#228=ORIENTED_EDGE('',*,*,#178,.T.);
#229=ORIENTED_EDGE('',*,*,#148,.T.);
#230=ORIENTED_EDGE('',*,*,#179,.T.);
#231=ORIENTED_EDGE('',*,*,#165,.F.);
#232=ORIENTED_EDGE('',*,*,#170,.F.);
#233=ORIENTED_EDGE('',*,*,#178,.F.);
#234=ORIENTED_EDGE('',*,*,#180,.T.);
#235=ORIENTED_EDGE('',*,*,#179,.F.);
#236=ORIENTED_EDGE('',*,*,#176,.F.);
#237=ORIENTED_EDGE('',*,*,#173,.F.);
#238=ORIENTED_EDGE('',*,*,#181,.T.);
#239=ORIENTED_EDGE('',*,*,#159,.F.);
#240=ORIENTED_EDGE('',*,*,#168,.F.);
#241=ORIENTED_EDGE('',*,*,#164,.F.);
#242=ORIENTED_EDGE('',*,*,#162,.F.);
#243=ORIENTED_EDGE('',*,*,#167,.F.);
#244=ORIENTED_EDGE('',*,*,#175,.F.);
#245=ORIENTED_EDGE('',*,*,#171,.F.);
#246=ORIENTED_EDGE('',*,*,#169,.F.);
#247=ORIENTED_EDGE('',*,*,#161,.F.);
#248=ORIENTED_EDGE('',*,*,#180,.F.);
#249=ORIENTED_EDGE('',*,*,#177,.F.);
#250=ORIENTED_EDGE('',*,*,#181,.F.);
#251=ORIENTED_EDGE('',*,*,#172,.F.);
#252=ORIENTED_EDGE('',*,*,#182,.F.);
#253=ORIENTED_EDGE('',*,*,#158,.F.);
#254=ORIENTED_EDGE('',*,*,#182,.T.);
#255=ORIENTED_EDGE('',*,*,#174,.F.);
#256=ORIENTED_EDGE('',*,*,#166,.F.);
#257=SPHERICAL_SURFACE('',#294,0.5);
#258=SPHERICAL_SURFACE('',#298,0.5);
#259=SPHERICAL_SURFACE('',#302,0.5);
#260=SPHERICAL_SURFACE('',#306,0.5);
#261=ADVANCED_FACE('',(#74),#257,.T.);
#262=ADVANCED_FACE('',(#75),#258,.T.);
#263=ADVANCED_FACE('',(#76),#259,.T.);
#264=ADVANCED_FACE('',(#77),#260,.T.);
#265=ADVANCED_FACE('',(#78),#65,.T.);
#266=ADVANCED_FACE('',(#79),#66,.T.);
#267=ADVANCED_FACE('',(#80),#67,.T.);
#268=ADVANCED_FACE('',(#81),#68,.T.);
#269=ADVANCED_FACE('',(#82),#69,.T.);
#270=ADVANCED_FACE('',(#83),#70,.T.);
#271=ADVANCED_FACE('',(#84),#71,.T.);
#272=ADVANCED_FACE('',(#85),#72,.T.);
#273=ADVANCED_FACE('',(#86),#73,.T.);
#274=ADVANCED_FACE('',(#87),#15,.T.);
#275=ADVANCED_FACE('',(#88),#16,.T.);
#276=ADVANCED_FACE('',(#89),#17,.T.);
#277=ADVANCED_FACE('',(#90),#18,.T.);
#278=ADVANCED_FACE('',(#91),#19,.T.);
#279=ADVANCED_FACE('',(#92),#20,.F.);
#280=CLOSED_SHELL('',(#261,#262,#263,#264,#265,#266,#267,#268,#269,#270,
#271,#272,#273,#274,#275,#276,#277,#278,#279));
#281=DERIVED_UNIT_ELEMENT(#283,1.);
#282=DERIVED_UNIT_ELEMENT(#504,-3.);
#283=(
MASS_UNIT()
NAMED_UNIT(*)
SI_UNIT(.KILO.,.GRAM.)
);
#284=DERIVED_UNIT((#281,#282));
#285=MEASURE_REPRESENTATION_ITEM('density measure',
POSITIVE_RATIO_MEASURE(7850.),#284);
#286=PROPERTY_DEFINITION_REPRESENTATION(#291,#288);
#287=PROPERTY_DEFINITION_REPRESENTATION(#292,#289);
#288=REPRESENTATION('material name',(#290),#501);
#289=REPRESENTATION('density',(#285),#501);
#290=DESCRIPTIVE_REPRESENTATION_ITEM('Steel','Steel');
#291=PROPERTY_DEFINITION('material property','material name',#511);
#292=PROPERTY_DEFINITION('material property','density of part',#511);
#293=AXIS2_PLACEMENT_3D('',#422,#329,#330);
#294=AXIS2_PLACEMENT_3D('',#423,#331,#332);
#295=AXIS2_PLACEMENT_3D('',#426,#333,#334);
#296=AXIS2_PLACEMENT_3D('',#428,#335,#336);
#297=AXIS2_PLACEMENT_3D('',#429,#337,#338);
#298=AXIS2_PLACEMENT_3D('',#430,#339,#340);
#299=AXIS2_PLACEMENT_3D('',#433,#341,#342);
#300=AXIS2_PLACEMENT_3D('',#435,#343,#344);
#301=AXIS2_PLACEMENT_3D('',#436,#345,#346);
#302=AXIS2_PLACEMENT_3D('',#437,#347,#348);
#303=AXIS2_PLACEMENT_3D('',#440,#349,#350);
#304=AXIS2_PLACEMENT_3D('',#442,#351,#352);
#305=AXIS2_PLACEMENT_3D('',#443,#353,#354);
#306=AXIS2_PLACEMENT_3D('',#444,#355,#356);
#307=AXIS2_PLACEMENT_3D('',#447,#357,#358);
#308=AXIS2_PLACEMENT_3D('',#449,#359,#360);
#309=AXIS2_PLACEMENT_3D('',#450,#361,#362);
#310=AXIS2_PLACEMENT_3D('',#451,#363,#364);
#311=AXIS2_PLACEMENT_3D('',#456,#367,#368);
#312=AXIS2_PLACEMENT_3D('',#457,#369,#370);
#313=AXIS2_PLACEMENT_3D('',#462,#373,#374);
#314=AXIS2_PLACEMENT_3D('',#463,#375,#376);
#315=AXIS2_PLACEMENT_3D('',#466,#379,#380);
#316=AXIS2_PLACEMENT_3D('',#469,#383,#384);
#317=AXIS2_PLACEMENT_3D('',#472,#387,#388);
#318=AXIS2_PLACEMENT_3D('',#475,#391,#392);
#319=AXIS2_PLACEMENT_3D('',#478,#393,#394);
#320=AXIS2_PLACEMENT_3D('',#481,#397,#398);
#321=AXIS2_PLACEMENT_3D('',#484,#401,#402);
#322=AXIS2_PLACEMENT_3D('',#487,#403,#404);
#323=AXIS2_PLACEMENT_3D('',#490,#407,#408);
#324=AXIS2_PLACEMENT_3D('',#492,#410,#411);
#325=AXIS2_PLACEMENT_3D('',#494,#413,#414);
#326=AXIS2_PLACEMENT_3D('',#495,#415,#416);
#327=AXIS2_PLACEMENT_3D('',#496,#417,#418);
#328=AXIS2_PLACEMENT_3D('',#498,#420,#421);
#329=DIRECTION('axis',(0.,0.,1.));
#330=DIRECTION('refdir',(1.,0.,0.));
#331=DIRECTION('center_axis',(0.408248290463863,-0.408248290463863,-0.816496580927726));
#332=DIRECTION('ref_axis',(-0.577350269189626,0.577350269189626,-0.577350269189626));
#333=DIRECTION('center_axis',(-1.,0.,0.));
#334=DIRECTION('ref_axis',(0.,0.,-1.));
#335=DIRECTION('center_axis',(0.,1.,0.));
#336=DIRECTION('ref_axis',(-1.,0.,0.));
#337=DIRECTION('center_axis',(0.,0.,-1.));
#338=DIRECTION('ref_axis',(0.,1.,0.));
#339=DIRECTION('center_axis',(0.408248290463863,0.408248290463863,-0.816496580927726));
#340=DIRECTION('ref_axis',(-0.577350269189626,-0.577350269189626,-0.577350269189625));
#341=DIRECTION('center_axis',(0.,-1.,0.));
#342=DIRECTION('ref_axis',(0.,0.,-1.));
#343=DIRECTION('center_axis',(-1.,0.,0.));
#344=DIRECTION('ref_axis',(0.,-1.,0.));
#345=DIRECTION('center_axis',(0.,0.,-1.));
#346=DIRECTION('ref_axis',(-1.,0.,0.));
#347=DIRECTION('center_axis',(0.40824829046386,-0.816496580927727,-0.408248290463865));
#348=DIRECTION('ref_axis',(0.577350269189623,0.577350269189627,-0.577350269189627));
#349=DIRECTION('center_axis',(0.,0.,-1.));
#350=DIRECTION('ref_axis',(1.,0.,0.));
#351=DIRECTION('center_axis',(0.,1.,0.));
#352=DIRECTION('ref_axis',(0.,0.,-1.));
#353=DIRECTION('center_axis',(1.,0.,0.));
#354=DIRECTION('ref_axis',(0.,1.,0.));
#355=DIRECTION('center_axis',(-0.40824829046386,-0.816496580927727,0.408248290463865));
#356=DIRECTION('ref_axis',(0.577350269189623,-0.577350269189627,-0.577350269189628));
#357=DIRECTION('center_axis',(0.,-1.,0.));
#358=DIRECTION('ref_axis',(1.,0.,0.));
#359=DIRECTION('center_axis',(0.,0.,-1.));
#360=DIRECTION('ref_axis',(0.,-1.,0.));
#361=DIRECTION('center_axis',(1.,0.,0.));
#362=DIRECTION('ref_axis',(0.,0.,-1.));
#363=DIRECTION('center_axis',(0.,0.,1.));
#364=DIRECTION('ref_axis',(0.707106781186546,-0.707106781186549,0.));
#365=DIRECTION('',(0.,0.,-1.));
#366=DIRECTION('',(0.,0.,1.));
#367=DIRECTION('center_axis',(0.,-0.707106781186546,-0.707106781186549));
#368=DIRECTION('ref_axis',(0.,0.707106781186549,-0.707106781186546));
#369=DIRECTION('center_axis',(0.,1.,0.));
#370=DIRECTION('ref_axis',(0.707106781186548,0.,0.707106781186548));
#371=DIRECTION('',(0.,-1.,0.));
#372=DIRECTION('',(0.,1.,0.));
#373=DIRECTION('center_axis',(0.,-0.707106781186546,0.707106781186549));
#374=DIRECTION('ref_axis',(0.,-0.707106781186549,-0.707106781186546));
#375=DIRECTION('center_axis',(0.,0.,-1.));
#376=DIRECTION('ref_axis',(0.707106781186546,0.707106781186549,0.));
#377=DIRECTION('',(0.,0.,-1.));
#378=DIRECTION('',(0.,0.,1.));
#379=DIRECTION('center_axis',(1.,0.,0.));
#380=DIRECTION('ref_axis',(0.,-0.707106781186548,-0.707106781186547));
#381=DIRECTION('',(-1.,0.,0.));
#382=DIRECTION('',(1.,0.,0.));
#383=DIRECTION('center_axis',(0.,1.,0.));
#384=DIRECTION('ref_axis',(0.707106781186546,0.,-0.707106781186549));
#385=DIRECTION('',(0.,-1.,0.));
#386=DIRECTION('',(0.,1.,0.));
#387=DIRECTION('center_axis',(-1.,0.,0.));
#388=DIRECTION('ref_axis',(0.,0.707106781186548,-0.707106781186547));
#389=DIRECTION('',(1.,0.,0.));
#390=DIRECTION('',(-1.,0.,0.));
#391=DIRECTION('center_axis',(4.40279828362363E-33,0.,-1.));
#392=DIRECTION('ref_axis',(-0.707106781186548,-0.707106781186547,0.));
#393=DIRECTION('center_axis',(0.,0.,-1.));
#394=DIRECTION('ref_axis',(-0.707106781186548,-0.707106781186547,0.));
#395=DIRECTION('',(4.40279828362363E-33,0.,-1.));
#396=DIRECTION('',(-4.40279828362363E-33,0.,1.));
#397=DIRECTION('center_axis',(0.,1.,0.));
#398=DIRECTION('ref_axis',(-0.707106781186548,0.,-0.707106781186547));
#399=DIRECTION('',(0.,-1.,0.));
#400=DIRECTION('',(0.,1.,0.));
#401=DIRECTION('center_axis',(-4.40279828362363E-33,0.,1.));
#402=DIRECTION('ref_axis',(-0.707106781186548,0.707106781186548,0.));
#403=DIRECTION('center_axis',(0.,0.,-1.));
#404=DIRECTION('ref_axis',(-0.707106781186548,0.707106781186548,0.));
#405=DIRECTION('',(4.40279828362363E-33,0.,-1.));
#406=DIRECTION('',(-4.40279828362363E-33,0.,1.));
#407=DIRECTION('center_axis',(0.,1.,0.));
#408=DIRECTION('ref_axis',(0.,0.,1.));
#409=DIRECTION('',(1.,0.,0.));
#410=DIRECTION('center_axis',(-1.,0.,-4.40279828362363E-33));
#411=DIRECTION('ref_axis',(-4.40279828362363E-33,0.,1.));
#412=DIRECTION('',(0.,1.,0.));
#413=DIRECTION('center_axis',(1.,0.,0.));
#414=DIRECTION('ref_axis',(0.,0.,-1.));
#415=DIRECTION('center_axis',(0.,0.,-1.));
#416=DIRECTION('ref_axis',(-1.,0.,0.));
#417=DIRECTION('center_axis',(0.,0.,1.));
#418=DIRECTION('ref_axis',(1.,0.,0.));
#419=DIRECTION('',(-1.,0.,0.));
#420=DIRECTION('center_axis',(0.,1.,0.));
#421=DIRECTION('ref_axis',(1.,0.,0.));
#422=CARTESIAN_POINT('',(0.,0.,0.));
#423=CARTESIAN_POINT('Origin',(0.5,1.65,0.5));
#424=CARTESIAN_POINT('',(0.5,1.65,0.));
#425=CARTESIAN_POINT('',(0.5,2.15,0.5));
#426=CARTESIAN_POINT('Origin',(0.5,1.65,0.5));
#427=CARTESIAN_POINT('',(2.0307907083214E-32,1.65,0.5));
#428=CARTESIAN_POINT('Origin',(0.5,1.65,0.5));
#429=CARTESIAN_POINT('Origin',(0.5,1.65,0.5));
#430=CARTESIAN_POINT('Origin',(0.5,0.5,0.5));
#431=CARTESIAN_POINT('',(0.5,0.5,0.));
#432=CARTESIAN_POINT('',(0.,0.5,0.5));
#433=CARTESIAN_POINT('Origin',(0.5,0.5,0.5));
#434=CARTESIAN_POINT('',(0.5,0.,0.5));
#435=CARTESIAN_POINT('Origin',(0.5,0.5,0.5));
#436=CARTESIAN_POINT('Origin',(0.5,0.5,0.5));
#437=CARTESIAN_POINT('Origin',(22.4,1.65,0.5));
#438=CARTESIAN_POINT('',(22.9,1.65,0.5));
#439=CARTESIAN_POINT('',(22.4,2.15,0.5));
#440=CARTESIAN_POINT('Origin',(22.4,1.65,0.5));
#441=CARTESIAN_POINT('',(22.4,1.65,0.));
#442=CARTESIAN_POINT('Origin',(22.4,1.65,0.5));
#443=CARTESIAN_POINT('Origin',(22.4,1.65,0.5));
#444=CARTESIAN_POINT('Origin',(22.4,0.5,0.5));
#445=CARTESIAN_POINT('',(22.9,0.5,0.5));
#446=CARTESIAN_POINT('',(22.4,0.5,0.));
#447=CARTESIAN_POINT('Origin',(22.4,0.5,0.5));
#448=CARTESIAN_POINT('',(22.4,0.,0.5));
#449=CARTESIAN_POINT('Origin',(22.4,0.5,0.5));
#450=CARTESIAN_POINT('Origin',(22.4,0.5,0.5));
#451=CARTESIAN_POINT('Origin',(22.4,0.5,15.3375));
#452=CARTESIAN_POINT('',(22.4,0.,20.45));
#453=CARTESIAN_POINT('',(22.4,0.,15.3375));
#454=CARTESIAN_POINT('',(22.9,0.5,19.95));
#455=CARTESIAN_POINT('',(22.9,0.5,15.3375));
#456=CARTESIAN_POINT('Origin',(22.4,0.5,19.95));
#457=CARTESIAN_POINT('Origin',(22.4,0.,19.95));
#458=CARTESIAN_POINT('',(22.4,2.15,20.45));
#459=CARTESIAN_POINT('',(22.4,0.,20.45));
#460=CARTESIAN_POINT('',(22.9,1.65,19.95));
#461=CARTESIAN_POINT('',(22.9,0.,19.95));
#462=CARTESIAN_POINT('Origin',(22.4,1.65,19.95));
#463=CARTESIAN_POINT('Origin',(22.4,1.65,15.3375));
#464=CARTESIAN_POINT('',(22.9,1.65,15.3375));
#465=CARTESIAN_POINT('',(22.4,2.15,15.3375));
#466=CARTESIAN_POINT('Origin',(17.175,0.5,0.5));
#467=CARTESIAN_POINT('',(17.175,0.,0.5));
#468=CARTESIAN_POINT('',(17.175,0.5,0.));
#469=CARTESIAN_POINT('Origin',(22.4,0.,0.5));
#470=CARTESIAN_POINT('',(22.9,0.,0.5));
#471=CARTESIAN_POINT('',(22.4,0.,0.));
#472=CARTESIAN_POINT('Origin',(17.175,1.65,0.5));
#473=CARTESIAN_POINT('',(17.175,2.15,0.5));
#474=CARTESIAN_POINT('',(17.175,1.65,0.));
#475=CARTESIAN_POINT('Origin',(0.5,0.5,5.1125));
#476=CARTESIAN_POINT('',(0.499999999999998,0.,20.45));
#477=CARTESIAN_POINT('',(-9.00372249001033E-32,0.5,20.45));
#478=CARTESIAN_POINT('Origin',(0.5,0.5,20.45));
#479=CARTESIAN_POINT('',(0.,0.5,5.1125));
#480=CARTESIAN_POINT('',(0.5,0.,5.1125));
#481=CARTESIAN_POINT('Origin',(0.5,0.,0.5));
#482=CARTESIAN_POINT('',(0.5,0.,0.));
#483=CARTESIAN_POINT('',(0.,0.,0.5));
#484=CARTESIAN_POINT('Origin',(0.5,1.65,5.1125));
#485=CARTESIAN_POINT('',(-9.00372249001033E-32,1.65,20.45));
#486=CARTESIAN_POINT('',(0.499999999999998,2.15,20.45));
#487=CARTESIAN_POINT('Origin',(0.5,1.65,20.45));
#488=CARTESIAN_POINT('',(0.5,2.15,5.1125));
#489=CARTESIAN_POINT('',(0.,1.65,5.1125));
#490=CARTESIAN_POINT('Origin',(11.45,2.15,10.225));
#491=CARTESIAN_POINT('',(22.9,2.15,20.45));
#492=CARTESIAN_POINT('Origin',(0.,0.,0.));
#493=CARTESIAN_POINT('',(-9.00372249001033E-32,0.,20.45));
#494=CARTESIAN_POINT('Origin',(22.9,0.,20.45));
#495=CARTESIAN_POINT('Origin',(22.9,0.,0.));
#496=CARTESIAN_POINT('Origin',(0.,0.,20.45));
#497=CARTESIAN_POINT('',(22.9,0.,20.45));
#498=CARTESIAN_POINT('Origin',(11.45,0.,10.225));
#499=UNCERTAINTY_MEASURE_WITH_UNIT(LENGTH_MEASURE(0.01),#503,
'DISTANCE_ACCURACY_VALUE',
'Maximum model space distance between geometric entities at asserted c
onnectivities');
#500=UNCERTAINTY_MEASURE_WITH_UNIT(LENGTH_MEASURE(0.01),#503,
'DISTANCE_ACCURACY_VALUE',
'Maximum model space distance between geometric entities at asserted c
onnectivities');
#501=(
GEOMETRIC_REPRESENTATION_CONTEXT(3)
GLOBAL_UNCERTAINTY_ASSIGNED_CONTEXT((#499))
GLOBAL_UNIT_ASSIGNED_CONTEXT((#503,#505,#506))
REPRESENTATION_CONTEXT('','3D')
);
#502=(
GEOMETRIC_REPRESENTATION_CONTEXT(3)
GLOBAL_UNCERTAINTY_ASSIGNED_CONTEXT((#500))
GLOBAL_UNIT_ASSIGNED_CONTEXT((#503,#505,#506))
REPRESENTATION_CONTEXT('','3D')
);
#503=(
LENGTH_UNIT()
NAMED_UNIT(*)
SI_UNIT(.MILLI.,.METRE.)
);
#504=(
LENGTH_UNIT()
NAMED_UNIT(*)
SI_UNIT($,.METRE.)
);
#505=(
NAMED_UNIT(*)
PLANE_ANGLE_UNIT()
SI_UNIT($,.RADIAN.)
);
#506=(
NAMED_UNIT(*)
SI_UNIT($,.STERADIAN.)
SOLID_ANGLE_UNIT()
);
#507=SHAPE_DEFINITION_REPRESENTATION(#508,#509);
#508=PRODUCT_DEFINITION_SHAPE('',$,#511);
#509=SHAPE_REPRESENTATION('',(#293),#501);
#510=PRODUCT_DEFINITION_CONTEXT('part definition',#515,'design');
#511=PRODUCT_DEFINITION('Separateur','Separateur',#512,#510);
#512=PRODUCT_DEFINITION_FORMATION('',$,#517);
#513=PRODUCT_RELATED_PRODUCT_CATEGORY('Separateur','Separateur',(#517));
#514=APPLICATION_PROTOCOL_DEFINITION('international standard',
'automotive_design',2009,#515);
#515=APPLICATION_CONTEXT(
'Core Data for Automotive Mechanical Design Process');
#516=PRODUCT_CONTEXT('part definition',#515,'mechanical');
#517=PRODUCT('Separateur','Separateur',$,(#516));
#518=PRESENTATION_STYLE_ASSIGNMENT((#519));
#519=SURFACE_STYLE_USAGE(.BOTH.,#520);
#520=SURFACE_SIDE_STYLE('',(#521));
#521=SURFACE_STYLE_FILL_AREA(#522);
#522=FILL_AREA_STYLE('Steel - Satin',(#523));
#523=FILL_AREA_STYLE_COLOUR('Steel - Satin',#524);
#524=COLOUR_RGB('Steel - Satin',0.627450980392157,0.627450980392157,0.627450980392157);
ENDSEC;
END-ISO-10303-21;
